  0
SECTION
  2
HEADER
  9
$ACADVER
  1
AC1012
  9
$DWGCODEPAGE
  3
ansi_932
  9
$INSBASE
 10
0.0
 20
0.0
 30
0.0
  9
$EXTMIN
 10
0.0
 20
0.0
 30
0.0
  9
$EXTMAX
 10
420.0
 20
297.0
 30
0.0
  9
$LIMMIN
 10
0.0
 20
0.0
  9
$LIMMAX
 10
420.0
 20
297.0
  9
$ORTHOMODE
 70
     0
  9
$REGENMODE
 70
     1
  9
$FILLMODE
 70
     1
  9
$QTEXTMODE
 70
     0
  9
$MIRRTEXT
 70
     1
  9
$DRAGMODE
 70
     2
  9
$LTSCALE
 40
1.0
  9
$OSMODE
 70
     0
  9
$ATTMODE
 70
     1
  9
$TEXTSIZE
 40
2.5
  9
$TRACEWID
 40
1.0
  9
$TEXTSTYLE
  7
FX_VECTOR
  9
$CLAYER
  8
0
  9
$CELTYPE
  6
CONTINUOUS
  9
$CECOLOR
 62
   256
  9
$CELTSCALE
 40
1.0
  9
$DELOBJ
 70
     1
  9
$DISPSILH
 70
     0
  9
$DIMSCALE
 40
1.0
  9
$DIMASZ
 40
2.5
  9
$DIMEXO
 40
1.0
  9
$DIMDLI
 40
10.0
  9
$DIMRND
 40
0.0
  9
$DIMDLE
 40
6.0
  9
$DIMEXE
 40
1.0
  9
$DIMTP
 40
0.0
  9
$DIMTM
 40
0.0
  9
$DIMTXT
 40
3.0
  9
$DIMCEN
 40
2.5
  9
$DIMTSZ
 40
0.0
  9
$DIMTOL
 70
     0
  9
$DIMLIM
 70
     0
  9
$DIMTIH
 70
     0
  9
$DIMTOH
 70
     0
  9
$DIMSE1
 70
     0
  9
$DIMSE2
 70
     0
  9
$DIMTAD
 70
     1
  9
$DIMZIN
 70
     8
  9
$DIMBLK
  1

  9
$DIMASO
 70
     1
  9
$DIMSHO
 70
     1
  9
$DIMPOST
  1

  9
$DIMAPOST
  1

  9
$DIMALT
 70
     0
  9
$DIMALTD
 70
     3
  9
$DIMALTF
 40
0.03937
  9
$DIMLFAC
 40
1.0
  9
$DIMTOFL
 70
     1
  9
$DIMTVP
 40
0.0
  9
$DIMTIX
 70
     0
  9
$DIMSOXD
 70
     0
  9
$DIMSAH
 70
     1
  9
$DIMBLK1
  1
FXTIP_ARROW_S
  9
$DIMBLK2
  1
FXTIP_ARROW_E
  9
$DIMSTYLE
  2
FXDIMINFO
  9
$DIMCLRD
 70
     2
  9
$DIMCLRE
 70
     2
  9
$DIMCLRT
 70
     4
  9
$DIMTFAC
 40
1.0
  9
$DIMGAP
 40
1.0
  9
$DIMJUST
 70
     0
  9
$DIMSD1
 70
     0
  9
$DIMSD2
 70
     0
  9
$DIMTOLJ
 70
     0
  9
$DIMTZIN
 70
     8
  9
$DIMALTZ
 70
     0
  9
$DIMALTTZ
 70
     0
  9
$DIMFIT
 70
     3
  9
$DIMUPT
 70
     0
  9
$DIMUNIT
 70
     2
  9
$DIMDEC
 70
     2
  9
$DIMTDEC
 70
     2
  9
$DIMALTU
 70
     2
  9
$DIMALTTD
 70
     3
  9
$DIMTXSTY
  7
FX_VECTOR
  9
$DIMAUNIT
 70
     0
  9
$LUNITS
 70
     2
  9
$LUPREC
 70
     4
  9
$SKETCHINC
 40
1.0
  9
$FILLETRAD
 40
10.0
  9
$AUNITS
 70
     0
  9
$AUPREC
 70
     0
  9
$MENU
  1

  9
$ELEVATION
 40
0.0
  9
$PELEVATION
 40
0.0
  9
$THICKNESS
 40
0.0
  9
$LIMCHECK
 70
     0
  9
$BLIPMODE
 70
     1
  9
$CHAMFERA
 40
10.0
  9
$CHAMFERB
 40
10.0
  9
$CHAMFERC
 40
20.0
  9
$CHAMFERD
 40
0.0
  9
$SKPOLY
 70
     0
  9
$TDCREATE
 40
0.000000000
  9
$TDUPDATE
 40
0.000000000
  9
$TDINDWG
 40
0.0000000000
  9
$TDUSRTIMER
 40
0.0000000000
  9
$USRTIMER
 70
     1
  9
$ANGBASE
 50
0.0
  9
$ANGDIR
 70
     0
  9
$PDMODE
 70
     0
  9
$PDSIZE
 40
0.0
  9
$PLINEWID
 40
0.0
  9
$COORDS
 70
     0
  9
$SPLFRAME
 70
     0
  9
$SPLINETYPE
 70
     6
  9
$SPLINESEGS
 70
     8
  9
$ATTDIA
 70
     0
  9
$ATTREQ
 70
     1
  9
$HANDLING
 70
     1
  9
$HANDSEED
  5
11A
  9
$SURFTAB1
 70
     6
  9
$SURFTAB2
 70
     6
  9
$SURFTYPE
 70
     6
  9
$SURFU
 70
     6
  9
$SURFV
 70
     6
  9
$UCSNAME
  2

  9
$UCSORG
 10
0.0
 20
0.0
 30
0.0
  9
$UCSXDIR
 10
1.0
 20
0.0
 30
0.0
  9
$UCSYDIR
 10
0.0
 20
1.0
 30
0.0
  9
$PUCSNAME
  2

  9
$PUCSORG
 10
0.0
 20
0.0
 30
0.0
  9
$PUCSXDIR
 10
1.0
 20
0.0
 30
0.0
  9
$PUCSYDIR
 10
0.0
 20
1.0
 30
0.0
  9
$USERI1
 70
     0
  9
$USERI2
 70
     0
  9
$USERI3
 70
     0
  9
$USERI4
 70
     0
  9
$USERI5
 70
     0
  9
$USERR1
 40
0.0
  9
$USERR2
 40
0.0
  9
$USERR3
 40
0.0
  9
$USERR4
 40
0.0
  9
$USERR5
 40
0.0
  9
$WORLDVIEW
 70
     1
  9
$SHADEDGE
 70
     3
  9
$SHADEDIF
 70
    70
  9
$TILEMODE
 70
     1
  9
$MAXACTVP
 70
    64
  9
$PINSBASE
 10
0.0
 20
0.0
 30
0.0
  9
$PLIMCHECK
 70
     0
  9
$PEXTMIN
 10
1.000000E+20
 20
1.000000E+20
 30
1.000000E+20
  9
$PEXTMAX
 10
-1.000000E+20
 20
-1.000000E+20
 30
-1.000000E+20
  9
$PLIMMIN
 10
0.0
 20
0.0
  9
$PLIMMAX
 10
420.0
 20
277.0
  9
$UNITMODE
 70
     0
  9
$VISRETAIN
 70
     1
  9
$PLINEGEN
 70
     0
  9
$PSLTSCALE
 70
     1
  9
$TREEDEPTH
 70
  3020
  9
$PICKSTYLE
 70
     1
  9
$CMLSTYLE
  2
STANDARD
  9
$CMLJUST
 70
     0
  9
$CMLSCALE
 40
20.0
  9
$SAVEIMAGES
 70
     1
  0
ENDSEC
  0
SECTION
  2
CLASSES
  0
CLASS
  1
LWPOLYLINE
  2
AcDbPolyline
  3
"AutoCAD"
 90
        0
280
     0
281
     1
  0
CLASS
  1
IMAGE
  2
AcDbRasterImage
  3
ISM
 90
      127
280
     0
281
     1
  0
CLASS
  1
OLE2FRAME
  2
AcDbOle2Frame
  3
""
 90
        0
280
     0
281
     1
  0
CLASS
  1
HATCH
  2
AcDbHatch
  3
"ACAD_SEDONA"
 90
        0
280
     0
281
     1
  0
CLASS
  1
DICTIONARYVAR
  2
AcDbDictionaryVar
  3
"AutoCAD"
 90
        0
280
     0
281
     0
  0
CLASS
  1
RASTERVARIABLES
  2
AcDbRasterVariables
  3
ISM
 90
        0
280
     0
281
     0
  0
CLASS
  1
IMAGEDEF
  2
AcDbRasterImageDef
  3
ISM
 90
        0
280
     0
281
     0
  0
CLASS
  1
IMAGEDEF_REACTOR
  2
AcDbRasterImageDefReactor
  3
ISM
 90
        1
280
     0
281
     0
  0
CLASS
  1
IDBUFFER
  2
AcDbIdBuffer
  3
"Acad"
 90
        0
280
     0
281
     0
  0
CLASS
  1
SPATIAL_FILTER
  2
AcDbSpatialFilter
  3
"Acad"
 90
        0
280
     0
281
     0
  0
CLASS
  1
XRECORD
  2
AcDbXrecord
  3
"<Built In>"
 90
        0
280
     0
281
     0
  0
CLASS
  1
SORTENTSTABLE
  2
AcDbSortentsTable
  3
"AutoCAD"
 90
        0
280
     0
281
     0
  0
CLASS
  1
LAYER_INDEX
  2
AcDbLayerIndex
  3
"Acad"
 90
        0
280
     0
281
     0
  0
CLASS
  1
SPATIAL_INDEX
  2
AcDbSpatialIndex
  3
"Acad"
 90
        0
280
     0
281
     0
  0
CLASS
  1
OBJECT_PTR
  2
CAseDLPNTableRecord
  3
"ASE-LPNTableRecord"
 90
        1
280
     0
281
     0
  0
CLASS
  1
LAYOUT
  2
AcDbLayout
  3
"AutoCAD 2000"
 90
        1
280
     0
281
     0
  0
CLASS
  1
PLOTSETTINGS
  2
AcDbPlotSettings
  3
"AutoCAD 2000"
 90
        1
280
     0
281
     0
  0
CLASS
  1
ACDBDICTIONARYWDFLT
  2
AcDbDictionaryWithDefault
  3
"AutoCAD 2000"
 90
        1
280
     0
281
     0
  0
CLASS
  1
ACDBPLACEHOLDER
  2
AcDbPlaceHolder
  3
"AutoCAD 2000"
 90
        1
280
     0
281
     0
  0
CLASS
  1
VBA_PROJECT
  2
AcDbVbaProject
  3
"acadvba"
 90
        1
280
     0
281
     0
  0
CLASS
  1
WIPEOUT
  2
AcDbWipeout
  3
WipeOut|AutoCAD Express Tool|expresstools@autodesk.com
 90
      127
280
     0
281
     1
  0
CLASS
  1
WIPEOUTVARIABLES
  2
AcDbWipeoutVariables
  3
WipeOut|AutoCAD Express Tool|expresstools@autodesk.com
 90
        0
280
     0
281
     0
  0
CLASS
  1
RTEXT
  2
RText
  3
RText|AutoCAD Express Tool|expresstools@autodesk.com
 90
        0
280
     0
281
     1
  0
CLASS
  1
ARCALIGNEDTEXT
  2
AcDbArcAlignedText
  3
ATEXT|AutoCAD Express Tool|expresstools@autodesk.com
 90
        0
280
     0
281
     1
  0
ENDSEC
  0
SECTION
  2
TABLES
  0
TABLE
  2
VPORT
  5
7
100
AcDbSymbolTable
 70
     1
  0
VPORT
  5
15
100
AcDbSymbolTableRecord
100
AcDbViewportTableRecord
  2
*ACTIVE
 70
     0
 10
0.0
 20
0.0
 11
1.0
 21
1.0
 12
210.0
 22
148.5
 13
0.0
 23
0.0
 14
1.0
 24
1.0
 15
0.0
 25
0.0
 16
0.0
 26
0.0
 36
1.0
 17
0.0
 27
0.0
 37
0.0
 40
297.0
 41
1.414141
 42
50.0
 43
0.0
 44
0.0
 50
0.0
 51
0.0
 71
     0
 72
   100
 73
     1
 74
     1
 75
     0
 76
     0
 77
     0
 78
     0
  0
ENDTAB
  0
TABLE
  2
LTYPE
  5
4
100
AcDbSymbolTable
 70
     5
  0
LTYPE
  5
11
100
AcDbSymbolTableRecord
100
AcDbLinetypeTableRecord
  2
BYBLOCK
 70
    64
  3

 72
    65
 73
     0
 40
0.0
  0
LTYPE
  5
12
100
AcDbSymbolTableRecord
100
AcDbLinetypeTableRecord
  2
BYLAYER
 70
    64
  3

 72
    65
 73
     0
 40
0.0
  0
LTYPE
  5
13
100
AcDbSymbolTableRecord
100
AcDbLinetypeTableRecord
  2
CONTINUOUS
 70
    64
  3
--------------------
 72
    65
 73
     0
 40
0.0
  0
LTYPE
  5
31
100
AcDbSymbolTableRecord
100
AcDbLinetypeTableRecord
  2
細い実線
 70
     0
  3
______________________________________________________________
 72
    65
 73
     0
 40
0.0
  0
LTYPE
  5
32
100
AcDbSymbolTableRecord
100
AcDbLinetypeTableRecord
  2
CENTER
 70
     0
  3
______________________________________________________________
 72
    65
 73
     4
 40
1.8
 49
1.2
 74
     0
 49
-0.2
 74
     0
 49
0.2
 74
     0
 49
-0.2
 74
     0
  0
ENDTAB
  0
TABLE
  2
LAYER
  5
2
100
AcDbSymbolTable
 70
     5
  0
LAYER
  5
14
100
AcDbSymbolTableRecord
100
AcDbLayerTableRecord
  2
0
 70
     0
 62
     7
  6
CONTINUOUS
  0
LAYER
  5
33
100
AcDbSymbolTableRecord
100
AcDbLayerTableRecord
  2
LAYERGROUP-1
 70
     0
 62
     3
  6
CONTINUOUS
  0
LAYER
  5
34
100
AcDbSymbolTableRecord
100
AcDbLayerTableRecord
  2
FC-外形線-1
 70
     0
 62
     7
  6
CONTINUOUS
  0
LAYER
  5
35
100
AcDbSymbolTableRecord
100
AcDbLayerTableRecord
  2
FC-中心線-1
 70
     0
 62
     7
  6
CONTINUOUS
  0
LAYER
  5
36
100
AcDbSymbolTableRecord
100
AcDbLayerTableRecord
  2
FC-文字-1
 70
     0
 62
     7
  6
CONTINUOUS
  0
ENDTAB
  0
TABLE
  2
STYLE
  5
3
100
AcDbSymbolTable
 70
     2
  0
STYLE
  5
17
100
AcDbSymbolTableRecord
100
AcDbTextStyleTableRecord
  2
STANDARD
 70
     0
 40
0.0
 41
1.0
 50
0.0
 71
     0
 42
0.0
  3
txt
  4

  0
STYLE
  5
37
100
AcDbSymbolTableRecord
100
AcDbTextStyleTableRecord
  2
FX_VECTOR
 70
     0
 40
0.0
 41
1.0
 50
0.0
 71
     0
 42
0.0
  3
MONOTXT.SHX
  4
BIGFONT.SHX
  0
ENDTAB
  0
TABLE
  2
VIEW
  5
5
100
AcDbSymbolTable
 70
     0
  0
ENDTAB
  0
TABLE
  2
UCS
  5
6
100
AcDbSymbolTable
 70
     0
  0
ENDTAB
  0
TABLE
  2
APPID
  5
8
100
AcDbSymbolTable
 70
     1
  0
APPID
  5
16
100
AcDbSymbolTableRecord
100
AcDbRegAppTableRecord
  2
ACAD
 70
     0
  0
ENDTAB
  0
TABLE
  2
DIMSTYLE
  5
9
100
AcDbSymbolTable
 70
     2
  0
DIMSTYLE
105
18
100
AcDbSymbolTableRecord
100
AcDbDimStyleTableRecord
  2
STANDARD
 70
     0
  3

  4

  5

  6

  7

 40
1.0
 41
0.18
 42
0.0625
 43
0.38
 44
0.18
 45
0.0
 46
0.0
 47
0.0
 48
0.0
 71
     0
 72
     0
 73
     1
 74
     1
 75
     0
 76
     0
 77
     0
 78
     0
140
0.18
141
0.09
142
0.0
143
25.4
144
1.0
145
0.0
146
1.0
147
0.09
170
     0
171
     2
172
     0
173
     0
174
     0
175
     0
176
     0
177
     0
178
     0
270
     2
271
     4
272
     4
273
     2
274
     2
275
     0
280
     0
281
     0
282
     0
283
     1
284
     0
285
     0
286
     0
287
     0
288
     0
340
17
  0
DIMSTYLE
105
38
100
AcDbSymbolTableRecord
100
AcDbDimStyleTableRecord
  2
FXDIMINFO
 70
     0
  3

  4

  5

  6
FXTIP_ARROW_S
  7
FXTIP_ARROW_E
 40
1.0
 41
2.5
 42
1.0
 43
10.0
 44
1.0
 45
0.0
 46
6.0
 47
0.0
 48
0.0
 71
     0
 72
     0
 73
     0
 74
     0
 75
     0
 76
     0
 77
     1
 78
     8
140
3.0
141
2.5
142
0.0
143
0.03937
144
1.0
145
0.0
146
1.0
147
1.0
170
     0
171
     3
172
     1
173
     1
174
     0
175
     0
176
     2
177
     2
178
     4
270
     2
271
     2
272
     2
273
     2
274
     3
275
     0
280
     0
281
     0
282
     0
283
     0
284
     8
285
     0
286
     0
287
     3
288
     0
340
37
  0
ENDTAB
  0
TABLE
  2
BLOCK_RECORD
  5
1
100
AcDbSymbolTable
 70
    20
  0
BLOCK_RECORD
  5
A
100
AcDbSymbolTableRecord
100
AcDbBlockTableRecord
  2
*MODEL_SPACE
  0
BLOCK_RECORD
  5
B
100
AcDbSymbolTableRecord
100
AcDbBlockTableRecord
  2
*PAPER_SPACE
  0
BLOCK_RECORD
  5
1D
100
AcDbSymbolTableRecord
100
AcDbBlockTableRecord
  2
FXTIP_ARROW_S
  0
BLOCK_RECORD
  5
1E
100
AcDbSymbolTableRecord
100
AcDbBlockTableRecord
  2
FXTIP_ARROW_E
  0
BLOCK_RECORD
  5
1F
100
AcDbSymbolTableRecord
100
AcDbBlockTableRecord
  2
FXTIP_BLACKDOT_S
  0
BLOCK_RECORD
  5
20
100
AcDbSymbolTableRecord
100
AcDbBlockTableRecord
  2
FXTIP_BLACKDOT_E
  0
BLOCK_RECORD
  5
21
100
AcDbSymbolTableRecord
100
AcDbBlockTableRecord
  2
FXTIP_TRIANGLE_S
  0
BLOCK_RECORD
  5
22
100
AcDbSymbolTableRecord
100
AcDbBlockTableRecord
  2
FXTIP_TRIANGLE_E
  0
BLOCK_RECORD
  5
23
100
AcDbSymbolTableRecord
100
AcDbBlockTableRecord
  2
FXTIP_ARCHITECT_S
  0
BLOCK_RECORD
  5
24
100
AcDbSymbolTableRecord
100
AcDbBlockTableRecord
  2
FXTIP_ARCHITECT_E
  0
BLOCK_RECORD
  5
25
100
AcDbSymbolTableRecord
100
AcDbBlockTableRecord
  2
FXTIP_CIVIL_S
  0
BLOCK_RECORD
  5
26
100
AcDbSymbolTableRecord
100
AcDbBlockTableRecord
  2
FXTIP_CIVIL_E
  0
BLOCK_RECORD
  5
27
100
AcDbSymbolTableRecord
100
AcDbBlockTableRecord
  2
FXTIP_WHITEDOT_S
  0
BLOCK_RECORD
  5
28
100
AcDbSymbolTableRecord
100
AcDbBlockTableRecord
  2
FXTIP_WHITEDOT_E
  0
BLOCK_RECORD
  5
29
100
AcDbSymbolTableRecord
100
AcDbBlockTableRecord
  2
FXTIP_UPARROW_S
  0
BLOCK_RECORD
  5
2A
100
AcDbSymbolTableRecord
100
AcDbBlockTableRecord
  2
FXTIP_UPARROW_E
  0
BLOCK_RECORD
  5
2B
100
AcDbSymbolTableRecord
100
AcDbBlockTableRecord
  2
FXTIP_DOWNARROW_S
  0
BLOCK_RECORD
  5
2C
100
AcDbSymbolTableRecord
100
AcDbBlockTableRecord
  2
FXTIP_DOWNARROW_E
  0
BLOCK_RECORD
  5
2D
100
AcDbSymbolTableRecord
100
AcDbBlockTableRecord
  2
FXTIP_BLACKTRIANGLE_S
  0
BLOCK_RECORD
  5
2E
100
AcDbSymbolTableRecord
100
AcDbBlockTableRecord
  2
FXTIP_BLACKTRIANGLE_E
  0
BLOCK_RECORD
  5
2F
100
AcDbSymbolTableRecord
100
AcDbBlockTableRecord
  2
BLKF0018
  0
BLOCK_RECORD
  5
30
100
AcDbSymbolTableRecord
100
AcDbBlockTableRecord
  2
BLKF0019
  0
ENDTAB
  0
ENDSEC
  0
SECTION
  2
BLOCKS
  0
BLOCK
  5
D
100
AcDbEntity
  8
0
100
AcDbBlockBegin
  2
*MODEL_SPACE
 70
     0
 10
0.0
 20
0.0
 30
0.0
  3
*MODEL_SPACE
  1

  0
ENDBLK
  5
E
100
AcDbEntity
  8
0
100
AcDbBlockEnd
  0
BLOCK
  5
F
100
AcDbEntity
 67
     1
  8
0
100
AcDbBlockBegin
  2
*PAPER_SPACE
 70
     0
 10
0.0
 20
0.0
 30
0.0
  3
*PAPER_SPACE
  1

  0
ENDBLK
  5
10
100
AcDbEntity
 67
     1
  8
0
100
AcDbBlockEnd
  0
BLOCK
  5
39
100
AcDbEntity
  8
0
  6
BYBLOCK
 62
     0
100
AcDbBlockBegin
  2
FXTIP_ARROW_S
 70
    64
 10
0.0
 20
0.0
 30
0.0
  3
FXTIP_ARROW_S
  1

  0
LINE
  5
3A
100
AcDbEntity
  8
0
  6
CONTINUOUS
 62
     0
100
AcDbLine
 10
0.0
 20
0.0
 30
0.0
 11
-1.0
 21
0.0
 31
0.0
  0
LINE
  5
3B
100
AcDbEntity
  8
0
  6
CONTINUOUS
 62
     0
100
AcDbLine
 10
0.0
 20
0.0
 30
0.0
 11
-0.965926
 21
-0.258819
 31
0.0
  0
LINE
  5
3C
100
AcDbEntity
  8
0
  6
CONTINUOUS
 62
     0
100
AcDbLine
 10
0.0
 20
0.0
 30
0.0
 11
-0.965926
 21
0.258819
 31
0.0
  0
ENDBLK
  5
3D
100
AcDbEntity
  8
0
  6
BYBLOCK
 62
     0
100
AcDbBlockEnd
  0
BLOCK
  5
3E
100
AcDbEntity
  8
0
  6
BYBLOCK
 62
     0
100
AcDbBlockBegin
  2
FXTIP_ARROW_E
 70
    64
 10
0.0
 20
0.0
 30
0.0
  3
FXTIP_ARROW_E
  1

  0
LINE
  5
3F
100
AcDbEntity
  8
0
  6
CONTINUOUS
 62
     0
100
AcDbLine
 10
0.0
 20
0.0
 30
0.0
 11
-1.0
 21
0.0
 31
0.0
  0
LINE
  5
40
100
AcDbEntity
  8
0
  6
CONTINUOUS
 62
     0
100
AcDbLine
 10
0.0
 20
0.0
 30
0.0
 11
-0.965926
 21
0.258819
 31
0.0
  0
LINE
  5
41
100
AcDbEntity
  8
0
  6
CONTINUOUS
 62
     0
100
AcDbLine
 10
0.0
 20
0.0
 30
0.0
 11
-0.965926
 21
-0.258819
 31
0.0
  0
ENDBLK
  5
42
100
AcDbEntity
  8
0
  6
BYBLOCK
 62
     0
100
AcDbBlockEnd
  0
BLOCK
  5
43
100
AcDbEntity
  8
0
  6
BYBLOCK
 62
     0
100
AcDbBlockBegin
  2
FXTIP_BLACKDOT_S
 70
     0
 10
0.0
 20
0.0
 30
0.0
  3
FXTIP_BLACKDOT_S
  1

  0
LINE
  5
44
100
AcDbEntity
  8
0
  6
CONTINUOUS
 62
     0
100
AcDbLine
 10
0.0
 20
0.0
 30
0.0
 11
-1.0
 21
0.0
 31
0.0
  0
POLYLINE
  5
45
100
AcDbEntity
  8
0
  6
CONTINUOUS
 62
     0
100
AcDb2dPolyline
 66
     1
 10
0.0
 20
0.0
 30
0.0
 70
     1
 40
0.5
 41
0.5
  0
VERTEX
  5
46
100
AcDbEntity
  8
0
  6
CONTINUOUS
 62
     0
100
AcDbVertex
100
AcDb2dVertex
 10
-0.25
 20
0.0
 30
0.0
 40
0.5
 41
0.5
 42
1.0
  0
VERTEX
  5
47
100
AcDbEntity
  8
0
  6
CONTINUOUS
 62
     0
100
AcDbVertex
100
AcDb2dVertex
 10
0.25
 20
0.0
 30
0.0
 40
0.5
 41
0.5
 42
1.0
  0
SEQEND
  5
48
100
AcDbEntity
  8
0
  6
CONTINUOUS
 62
     0
  0
CIRCLE
  5
49
100
AcDbEntity
  8
0
  6
CONTINUOUS
 62
     0
100
AcDbCircle
 10
0.0
 20
0.0
 30
0.0
 40
0.5
  0
ENDBLK
  5
4A
100
AcDbEntity
  8
0
  6
BYBLOCK
 62
     0
100
AcDbBlockEnd
  0
BLOCK
  5
4B
100
AcDbEntity
  8
0
  6
BYBLOCK
 62
     0
100
AcDbBlockBegin
  2
FXTIP_BLACKDOT_E
 70
     0
 10
0.0
 20
0.0
 30
0.0
  3
FXTIP_BLACKDOT_E
  1

  0
LINE
  5
4C
100
AcDbEntity
  8
0
  6
CONTINUOUS
 62
     0
100
AcDbLine
 10
0.0
 20
0.0
 30
0.0
 11
-1.0
 21
0.0
 31
0.0
  0
POLYLINE
  5
4D
100
AcDbEntity
  8
0
  6
CONTINUOUS
 62
     0
100
AcDb2dPolyline
 66
     1
 10
0.0
 20
0.0
 30
0.0
 70
     1
 40
0.5
 41
0.5
  0
VERTEX
  5
4E
100
AcDbEntity
  8
0
  6
CONTINUOUS
 62
     0
100
AcDbVertex
100
AcDb2dVertex
 10
-0.25
 20
0.0
 30
0.0
 40
0.5
 41
0.5
 42
1.0
  0
VERTEX
  5
4F
100
AcDbEntity
  8
0
  6
CONTINUOUS
 62
     0
100
AcDbVertex
100
AcDb2dVertex
 10
0.25
 20
0.0
 30
0.0
 40
0.5
 41
0.5
 42
1.0
  0
SEQEND
  5
50
100
AcDbEntity
  8
0
  6
CONTINUOUS
 62
     0
  0
CIRCLE
  5
51
100
AcDbEntity
  8
0
  6
CONTINUOUS
 62
     0
100
AcDbCircle
 10
0.0
 20
0.0
 30
0.0
 40
0.5
  0
ENDBLK
  5
52
100
AcDbEntity
  8
0
  6
BYBLOCK
 62
     0
100
AcDbBlockEnd
  0
BLOCK
  5
53
100
AcDbEntity
  8
0
  6
BYBLOCK
 62
     0
100
AcDbBlockBegin
  2
FXTIP_TRIANGLE_S
 70
     0
 10
0.0
 20
0.0
 30
0.0
  3
FXTIP_TRIANGLE_S
  1

  0
LINE
  5
54
100
AcDbEntity
  8
0
  6
CONTINUOUS
 62
     0
100
AcDbLine
 10
0.0
 20
0.0
 30
0.0
 11
-1.0
 21
0.0
 31
0.0
  0
LINE
  5
55
100
AcDbEntity
  8
0
  6
CONTINUOUS
 62
     0
100
AcDbLine
 10
0.0
 20
0.0
 30
0.0
 11
-0.965926
 21
-0.258819
 31
0.0
  0
LINE
  5
56
100
AcDbEntity
  8
0
  6
CONTINUOUS
 62
     0
100
AcDbLine
 10
0.0
 20
0.0
 30
0.0
 11
-0.965926
 21
0.258819
 31
0.0
  0
LINE
  5
57
100
AcDbEntity
  8
0
  6
CONTINUOUS
 62
     0
100
AcDbLine
 10
-0.965926
 20
-0.258819
 30
0.0
 11
-0.965926
 21
0.258819
 31
0.0
  0
ENDBLK
  5
58
100
AcDbEntity
  8
0
  6
BYBLOCK
 62
     0
100
AcDbBlockEnd
  0
BLOCK
  5
59
100
AcDbEntity
  8
0
  6
BYBLOCK
 62
     0
100
AcDbBlockBegin
  2
FXTIP_TRIANGLE_E
 70
     0
 10
0.0
 20
0.0
 30
0.0
  3
FXTIP_TRIANGLE_E
  1

  0
LINE
  5
5A
100
AcDbEntity
  8
0
  6
CONTINUOUS
 62
     0
100
AcDbLine
 10
0.0
 20
0.0
 30
0.0
 11
-1.0
 21
0.0
 31
0.0
  0
LINE
  5
5B
100
AcDbEntity
  8
0
  6
CONTINUOUS
 62
     0
100
AcDbLine
 10
0.0
 20
0.0
 30
0.0
 11
-0.965926
 21
0.258819
 31
0.0
  0
LINE
  5
5C
100
AcDbEntity
  8
0
  6
CONTINUOUS
 62
     0
100
AcDbLine
 10
0.0
 20
0.0
 30
0.0
 11
-0.965926
 21
-0.258819
 31
0.0
  0
LINE
  5
5D
100
AcDbEntity
  8
0
  6
CONTINUOUS
 62
     0
100
AcDbLine
 10
-0.965926
 20
0.258819
 30
0.0
 11
-0.965926
 21
-0.258819
 31
0.0
  0
ENDBLK
  5
5E
100
AcDbEntity
  8
0
  6
BYBLOCK
 62
     0
100
AcDbBlockEnd
  0
BLOCK
  5
5F
100
AcDbEntity
  8
0
  6
BYBLOCK
 62
     0
100
AcDbBlockBegin
  2
FXTIP_ARCHITECT_S
 70
     0
 10
0.0
 20
0.0
 30
0.0
  3
FXTIP_ARCHITECT_S
  1

  0
LINE
  5
60
100
AcDbEntity
  8
0
  6
CONTINUOUS
 62
     0
100
AcDbLine
 10
0.0
 20
0.0
 30
0.0
 11
-1.0
 21
0.0
 31
0.0
  0
LINE
  5
61
100
AcDbEntity
  8
0
  6
CONTINUOUS
 62
     0
100
AcDbLine
 10
0.0
 20
0.0
 30
0.0
 11
-0.707107
 21
-0.707107
 31
0.0
  0
LINE
  5
62
100
AcDbEntity
  8
0
  6
CONTINUOUS
 62
     0
100
AcDbLine
 10
0.0
 20
0.0
 30
0.0
 11
0.707107
 21
0.707107
 31
0.0
  0
ENDBLK
  5
63
100
AcDbEntity
  8
0
  6
BYBLOCK
 62
     0
100
AcDbBlockEnd
  0
BLOCK
  5
64
100
AcDbEntity
  8
0
  6
BYBLOCK
 62
     0
100
AcDbBlockBegin
  2
FXTIP_ARCHITECT_E
 70
     0
 10
0.0
 20
0.0
 30
0.0
  3
FXTIP_ARCHITECT_E
  1

  0
LINE
  5
65
100
AcDbEntity
  8
0
  6
CONTINUOUS
 62
     0
100
AcDbLine
 10
0.0
 20
0.0
 30
0.0
 11
-1.0
 21
0.0
 31
0.0
  0
LINE
  5
66
100
AcDbEntity
  8
0
  6
CONTINUOUS
 62
     0
100
AcDbLine
 10
0.0
 20
0.0
 30
0.0
 11
0.707107
 21
0.707107
 31
0.0
  0
LINE
  5
67
100
AcDbEntity
  8
0
  6
CONTINUOUS
 62
     0
100
AcDbLine
 10
0.0
 20
0.0
 30
0.0
 11
-0.707107
 21
-0.707107
 31
0.0
  0
ENDBLK
  5
68
100
AcDbEntity
  8
0
  6
BYBLOCK
 62
     0
100
AcDbBlockEnd
  0
BLOCK
  5
69
100
AcDbEntity
  8
0
  6
BYBLOCK
 62
     0
100
AcDbBlockBegin
  2
FXTIP_CIVIL_S
 70
     0
 10
0.0
 20
0.0
 30
0.0
  3
FXTIP_CIVIL_S
  1

  0
LINE
  5
6A
100
AcDbEntity
  8
0
  6
CONTINUOUS
 62
     0
100
AcDbLine
 10
0.0
 20
0.0
 30
0.0
 11
-1.0
 21
0.0
 31
0.0
  0
LINE
  5
6B
100
AcDbEntity
  8
0
  6
CONTINUOUS
 62
     0
100
AcDbLine
 10
0.0
 20
-0.1
 30
0.0
 11
-1.0
 21
-0.1
 31
0.0
  0
LINE
  5
6C
100
AcDbEntity
  8
0
  6
CONTINUOUS
 62
     0
100
AcDbLine
 10
0.0
 20
-0.2
 30
0.0
 11
-1.0
 21
-0.2
 31
0.0
  0
ENDBLK
  5
6D
100
AcDbEntity
  8
0
  6
BYBLOCK
 62
     0
100
AcDbBlockEnd
  0
BLOCK
  5
6E
100
AcDbEntity
  8
0
  6
BYBLOCK
 62
     0
100
AcDbBlockBegin
  2
FXTIP_CIVIL_E
 70
     0
 10
0.0
 20
0.0
 30
0.0
  3
FXTIP_CIVIL_E
  1

  0
LINE
  5
6F
100
AcDbEntity
  8
0
  6
CONTINUOUS
 62
     0
100
AcDbLine
 10
0.0
 20
0.0
 30
0.0
 11
-1.0
 21
0.0
 31
0.0
  0
LINE
  5
70
100
AcDbEntity
  8
0
  6
CONTINUOUS
 62
     0
100
AcDbLine
 10
0.0
 20
0.1
 30
0.0
 11
-1.0
 21
0.1
 31
0.0
  0
LINE
  5
71
100
AcDbEntity
  8
0
  6
CONTINUOUS
 62
     0
100
AcDbLine
 10
0.0
 20
0.2
 30
0.0
 11
-1.0
 21
0.2
 31
0.0
  0
ENDBLK
  5
72
100
AcDbEntity
  8
0
  6
BYBLOCK
 62
     0
100
AcDbBlockEnd
  0
BLOCK
  5
73
100
AcDbEntity
  8
0
  6
BYBLOCK
 62
     0
100
AcDbBlockBegin
  2
FXTIP_WHITEDOT_S
 70
     0
 10
0.0
 20
0.0
 30
0.0
  3
FXTIP_WHITEDOT_S
  1

  0
LINE
  5
74
100
AcDbEntity
  8
0
  6
CONTINUOUS
 62
     0
100
AcDbLine
 10
0.0
 20
0.0
 30
0.0
 11
-1.0
 21
0.0
 31
0.0
  0
CIRCLE
  5
75
100
AcDbEntity
  8
0
  6
CONTINUOUS
 62
     0
100
AcDbCircle
 10
0.0
 20
0.0
 30
0.0
 40
0.5
  0
ENDBLK
  5
76
100
AcDbEntity
  8
0
  6
BYBLOCK
 62
     0
100
AcDbBlockEnd
  0
BLOCK
  5
77
100
AcDbEntity
  8
0
  6
BYBLOCK
 62
     0
100
AcDbBlockBegin
  2
FXTIP_WHITEDOT_E
 70
     0
 10
0.0
 20
0.0
 30
0.0
  3
FXTIP_WHITEDOT_E
  1

  0
LINE
  5
78
100
AcDbEntity
  8
0
  6
CONTINUOUS
 62
     0
100
AcDbLine
 10
0.0
 20
0.0
 30
0.0
 11
-1.0
 21
0.0
 31
0.0
  0
CIRCLE
  5
79
100
AcDbEntity
  8
0
  6
CONTINUOUS
 62
     0
100
AcDbCircle
 10
0.0
 20
0.0
 30
0.0
 40
0.5
  0
ENDBLK
  5
7A
100
AcDbEntity
  8
0
  6
BYBLOCK
 62
     0
100
AcDbBlockEnd
  0
BLOCK
  5
7B
100
AcDbEntity
  8
0
  6
BYBLOCK
 62
     0
100
AcDbBlockBegin
  2
FXTIP_UPARROW_S
 70
     0
 10
0.0
 20
0.0
 30
0.0
  3
FXTIP_UPARROW_S
  1

  0
LINE
  5
7C
100
AcDbEntity
  8
0
  6
CONTINUOUS
 62
     0
100
AcDbLine
 10
0.0
 20
0.0
 30
0.0
 11
-1.0
 21
0.0
 31
0.0
  0
LINE
  5
7D
100
AcDbEntity
  8
0
  6
CONTINUOUS
 62
     0
100
AcDbLine
 10
0.0
 20
0.0
 30
0.0
 11
-0.965926
 21
-0.258819
 31
0.0
  0
ENDBLK
  5
7E
100
AcDbEntity
  8
0
  6
BYBLOCK
 62
     0
100
AcDbBlockEnd
  0
BLOCK
  5
7F
100
AcDbEntity
  8
0
  6
BYBLOCK
 62
     0
100
AcDbBlockBegin
  2
FXTIP_UPARROW_E
 70
     0
 10
0.0
 20
0.0
 30
0.0
  3
FXTIP_UPARROW_E
  1

  0
LINE
  5
80
100
AcDbEntity
  8
0
  6
CONTINUOUS
 62
     0
100
AcDbLine
 10
0.0
 20
0.0
 30
0.0
 11
-1.0
 21
0.0
 31
0.0
  0
LINE
  5
81
100
AcDbEntity
  8
0
  6
CONTINUOUS
 62
     0
100
AcDbLine
 10
0.0
 20
0.0
 30
0.0
 11
-0.965926
 21
0.258819
 31
0.0
  0
ENDBLK
  5
82
100
AcDbEntity
  8
0
  6
BYBLOCK
 62
     0
100
AcDbBlockEnd
  0
BLOCK
  5
83
100
AcDbEntity
  8
0
  6
BYBLOCK
 62
     0
100
AcDbBlockBegin
  2
FXTIP_DOWNARROW_S
 70
     0
 10
0.0
 20
0.0
 30
0.0
  3
FXTIP_DOWNARROW_S
  1

  0
LINE
  5
84
100
AcDbEntity
  8
0
  6
CONTINUOUS
 62
     0
100
AcDbLine
 10
0.0
 20
0.0
 30
0.0
 11
-1.0
 21
0.0
 31
0.0
  0
LINE
  5
85
100
AcDbEntity
  8
0
  6
CONTINUOUS
 62
     0
100
AcDbLine
 10
0.0
 20
0.0
 30
0.0
 11
-0.965926
 21
0.258819
 31
0.0
  0
ENDBLK
  5
86
100
AcDbEntity
  8
0
  6
BYBLOCK
 62
     0
100
AcDbBlockEnd
  0
BLOCK
  5
87
100
AcDbEntity
  8
0
  6
BYBLOCK
 62
     0
100
AcDbBlockBegin
  2
FXTIP_DOWNARROW_E
 70
     0
 10
0.0
 20
0.0
 30
0.0
  3
FXTIP_DOWNARROW_E
  1

  0
LINE
  5
88
100
AcDbEntity
  8
0
  6
CONTINUOUS
 62
     0
100
AcDbLine
 10
0.0
 20
0.0
 30
0.0
 11
-1.0
 21
0.0
 31
0.0
  0
LINE
  5
89
100
AcDbEntity
  8
0
  6
CONTINUOUS
 62
     0
100
AcDbLine
 10
0.0
 20
0.0
 30
0.0
 11
-0.965926
 21
-0.258819
 31
0.0
  0
ENDBLK
  5
8A
100
AcDbEntity
  8
0
  6
BYBLOCK
 62
     0
100
AcDbBlockEnd
  0
BLOCK
  5
8B
100
AcDbEntity
  8
0
  6
BYBLOCK
 62
     0
100
AcDbBlockBegin
  2
FXTIP_BLACKTRIANGLE_S
 70
     0
 10
0.0
 20
0.0
 30
0.0
  3
FXTIP_BLACKTRIANGLE_S
  1

  0
LINE
  5
8C
100
AcDbEntity
  8
0
  6
CONTINUOUS
 62
     0
100
AcDbLine
 10
0.0
 20
0.0
 30
0.0
 11
-1.0
 21
0.0
 31
0.0
  0
SOLID
  5
8D
100
AcDbEntity
  8
0
  6
CONTINUOUS
 62
     0
100
AcDbTrace
 10
0.0
 20
0.0
 30
0.0
 11
-0.965926
 21
-0.258819
 31
0.0
 12
-0.965926
 22
0.258819
 32
0.0
 13
-0.965926
 23
0.258819
 33
0.0
  0
ENDBLK
  5
8E
100
AcDbEntity
  8
0
  6
BYBLOCK
 62
     0
100
AcDbBlockEnd
  0
BLOCK
  5
8F
100
AcDbEntity
  8
0
  6
BYBLOCK
 62
     0
100
AcDbBlockBegin
  2
FXTIP_BLACKTRIANGLE_E
 70
     0
 10
0.0
 20
0.0
 30
0.0
  3
FXTIP_BLACKTRIANGLE_E
  1

  0
LINE
  5
90
100
AcDbEntity
  8
0
  6
CONTINUOUS
 62
     0
100
AcDbLine
 10
0.0
 20
0.0
 30
0.0
 11
-1.0
 21
0.0
 31
0.0
  0
SOLID
  5
91
100
AcDbEntity
  8
0
  6
CONTINUOUS
 62
     0
100
AcDbTrace
 10
0.0
 20
0.0
 30
0.0
 11
-0.965926
 21
0.258819
 31
0.0
 12
-0.965926
 22
-0.258819
 32
0.0
 13
-0.965926
 23
-0.258819
 33
0.0
  0
ENDBLK
  5
92
100
AcDbEntity
  8
0
  6
BYBLOCK
 62
     0
100
AcDbBlockEnd
  0
BLOCK
  5
93
100
AcDbEntity
  8
0
100
AcDbBlockBegin
  2
BLKF0018
 70
    64
 10
0.0
 20
0.0
 30
0.0
  3
BLKF0018
  1

  0
LINE
  5
94
100
AcDbEntity
  8
FC-外形線-1
  6
CONTINUOUS
 62
     4
100
AcDbLine
 10
357.439881
 20
130.767971
 30
0.0
 11
339.939881
 21
140.871601
 31
0.0
  0
LINE
  5
95
100
AcDbEntity
  8
FC-外形線-1
  6
CONTINUOUS
 62
     4
100
AcDbLine
 10
339.939881
 20
140.871601
 30
0.0
 11
322.439881
 21
130.767971
 31
0.0
  0
LINE
  5
96
100
AcDbEntity
  8
FC-外形線-1
  6
CONTINUOUS
 62
     4
100
AcDbLine
 10
322.439881
 20
130.767971
 30
0.0
 11
322.439881
 21
110.560712
 31
0.0
  0
LINE
  5
97
100
AcDbEntity
  8
FC-外形線-1
  6
CONTINUOUS
 62
     4
100
AcDbLine
 10
322.439881
 20
110.560712
 30
0.0
 11
339.939881
 21
100.457082
 31
0.0
  0
LINE
  5
98
100
AcDbEntity
  8
FC-外形線-1
  6
CONTINUOUS
 62
     4
100
AcDbLine
 10
339.939881
 20
100.457082
 30
0.0
 11
357.439881
 21
110.560712
 31
0.0
  0
LINE
  5
99
100
AcDbEntity
  8
FC-外形線-1
  6
CONTINUOUS
 62
     4
100
AcDbLine
 10
357.439881
 20
110.560712
 30
0.0
 11
357.439881
 21
130.767971
 31
0.0
  0
ENDBLK
  5
9A
100
AcDbEntity
  8
0
100
AcDbBlockEnd
  0
BLOCK
  5
9B
100
AcDbEntity
  8
0
100
AcDbBlockBegin
  2
BLKF0019
 70
    64
 10
0.0
 20
0.0
 30
0.0
  3
BLKF0019
  1

  0
LINE
  5
9C
100
AcDbEntity
  8
FC-外形線-1
  6
CONTINUOUS
 62
     4
100
AcDbLine
 10
100.439881
 20
132.500022
 30
0.0
 11
79.939881
 21
144.335702
 31
0.0
  0
LINE
  5
9D
100
AcDbEntity
  8
FC-外形線-1
  6
CONTINUOUS
 62
     4
100
AcDbLine
 10
79.939881
 20
144.335702
 30
0.0
 11
59.439881
 21
132.500022
 31
0.0
  0
LINE
  5
9E
100
AcDbEntity
  8
FC-外形線-1
  6
CONTINUOUS
 62
     4
100
AcDbLine
 10
59.439881
 20
132.500022
 30
0.0
 11
59.439881
 21
108.828661
 31
0.0
  0
LINE
  5
9F
100
AcDbEntity
  8
FC-外形線-1
  6
CONTINUOUS
 62
     4
100
AcDbLine
 10
59.439881
 20
108.828661
 30
0.0
 11
79.939881
 21
96.99298
 31
0.0
  0
LINE
  5
A0
100
AcDbEntity
  8
FC-外形線-1
  6
CONTINUOUS
 62
     4
100
AcDbLine
 10
79.939881
 20
96.99298
 30
0.0
 11
100.439881
 21
108.828661
 31
0.0
  0
LINE
  5
A1
100
AcDbEntity
  8
FC-外形線-1
  6
CONTINUOUS
 62
     4
100
AcDbLine
 10
100.439881
 20
108.828661
 30
0.0
 11
100.439881
 21
132.500022
 31
0.0
  0
ENDBLK
  5
A2
100
AcDbEntity
  8
0
100
AcDbBlockEnd
  0
ENDSEC
  0
SECTION
  2
ENTITIES
  0
LINE
  5
A3
100
AcDbEntity
  8
FC-外形線-1
  6
CONTINUOUS
 62
     4
100
AcDbLine
 10
284.439881
 20
215.664341
 30
0.0
 11
285.439881
 21
216.664341
 31
0.0
  0
LINE
  5
A4
100
AcDbEntity
  8
FC-外形線-1
  6
CONTINUOUS
 62
     4
100
AcDbLine
 10
245.939881
 20
216.664341
 30
0.0
 11
243.439881
 21
216.664341
 31
0.0
  0
LINE
  5
A5
100
AcDbEntity
  8
FC-外形線-1
  6
CONTINUOUS
 62
     4
100
AcDbLine
 10
284.439881
 20
215.664341
 30
0.0
 11
245.939881
 21
215.664341
 31
0.0
  0
LINE
  5
A6
100
AcDbEntity
  8
FC-外形線-1
  6
CONTINUOUS
 62
     3
100
AcDbLine
 10
285.439881
 20
216.664341
 30
0.0
 11
245.939881
 21
216.664341
 31
0.0
  0
LINE
  5
A7
100
AcDbEntity
  8
FC-外形線-1
  6
CONTINUOUS
 62
     4
100
AcDbLine
 10
284.439881
 20
245.664341
 30
0.0
 11
285.439881
 21
244.664341
 31
0.0
  0
LINE
  5
A8
100
AcDbEntity
  8
FC-外形線-1
  6
CONTINUOUS
 62
     4
100
AcDbLine
 10
285.439881
 20
216.664341
 30
0.0
 11
285.439881
 21
244.664341
 31
0.0
  0
LINE
  5
A9
100
AcDbEntity
  8
FC-外形線-1
  6
CONTINUOUS
 62
     4
100
AcDbLine
 10
284.439881
 20
245.664341
 30
0.0
 11
284.439881
 21
215.664341
 31
0.0
  0
LINE
  5
AA
100
AcDbEntity
  8
FC-外形線-1
  6
CONTINUOUS
 62
     4
100
AcDbLine
 10
245.939881
 20
244.664341
 30
0.0
 11
243.439881
 21
244.664341
 31
0.0
  0
LINE
  5
AB
100
AcDbEntity
  8
FC-外形線-1
  6
CONTINUOUS
 62
     4
100
AcDbLine
 10
245.939881
 20
245.664341
 30
0.0
 11
245.939881
 21
215.664341
 31
0.0
  0
LINE
  5
AC
100
AcDbEntity
  8
FC-外形線-1
  6
CONTINUOUS
 62
     3
100
AcDbLine
 10
285.439881
 20
244.664341
 30
0.0
 11
245.939881
 21
244.664341
 31
0.0
  0
LINE
  5
AD
100
AcDbEntity
  8
FC-外形線-1
  6
CONTINUOUS
 62
     4
100
AcDbLine
 10
284.439881
 20
245.664341
 30
0.0
 11
245.939881
 21
245.664341
 31
0.0
  0
CIRCLE
  5
AE
100
AcDbEntity
  8
FC-外形線-1
  6
CONTINUOUS
 62
     3
100
AcDbCircle
 10
339.939881
 20
120.664341
 30
0.0
 40
14.0
  0
CIRCLE
  5
AF
100
AcDbEntity
  8
FC-外形線-1
  6
CONTINUOUS
 62
     4
100
AcDbCircle
 10
339.939881
 20
120.664341
 30
0.0
 40
15.0
  0
CIRCLE
  5
B0
100
AcDbEntity
  8
FC-外形線-1
  6
CONTINUOUS
 62
     4
100
AcDbCircle
 10
79.939881
 20
120.664341
 30
0.0
 40
14.0
  0
CIRCLE
  5
B1
100
AcDbEntity
  8
FC-外形線-1
  6
CONTINUOUS
 62
     3
100
AcDbCircle
 10
79.939881
 20
120.664341
 30
0.0
 40
15.0
  0
CIRCLE
  5
B2
100
AcDbEntity
  8
FC-外形線-1
  6
CONTINUOUS
 62
     4
100
AcDbCircle
 10
339.939881
 20
120.664341
 30
0.0
 40
17.5
  0
INSERT
  5
B3
100
AcDbEntity
  8
0
100
AcDbBlockReference
  2
BLKF0018
 10
0.0
 20
0.0
 30
0.0
 44
1.0
 45
1.0
  0
LINE
  5
B4
100
AcDbEntity
  8
FC-外形線-1
  6
CONTINUOUS
 62
     4
100
AcDbLine
 10
284.439881
 20
135.664341
 30
0.0
 11
285.439881
 21
134.664341
 31
0.0
  0
LINE
  5
B5
100
AcDbEntity
  8
FC-外形線-1
  6
CONTINUOUS
 62
     4
100
AcDbLine
 10
284.439881
 20
105.664341
 30
0.0
 11
285.439881
 21
106.664341
 31
0.0
  0
LINE
  5
B6
100
AcDbEntity
  8
FC-外形線-1
  6
CONTINUOUS
 62
     4
100
AcDbLine
 10
285.439881
 20
106.664341
 30
0.0
 11
285.439881
 21
134.664341
 31
0.0
  0
LINE
  5
B7
100
AcDbEntity
  8
FC-外形線-1
  6
CONTINUOUS
 62
     4
100
AcDbLine
 10
284.439881
 20
135.664341
 30
0.0
 11
284.439881
 21
105.664341
 31
0.0
  0
CIRCLE
  5
B8
100
AcDbEntity
  8
FC-外形線-1
  6
CONTINUOUS
 62
     4
100
AcDbCircle
 10
339.939881
 20
120.664341
 30
0.0
 40
34.5
  0
CIRCLE
  5
B9
100
AcDbEntity
  8
FC-外形線-1
  6
CONTINUOUS
 62
     3
100
AcDbCircle
 10
339.939881
 20
120.664341
 30
0.0
 40
28.0
  0
LINE
  5
BA
100
AcDbEntity
  8
FC-中心線-1
  6
CENTER
 62
     3
100
AcDbLine
 10
299.439881
 20
120.664341
 30
0.0
 11
380.439881
 21
120.664341
 31
0.0
  0
LINE
  5
BB
100
AcDbEntity
  8
FC-中心線-1
  6
CENTER
 62
     3
100
AcDbLine
 10
339.939881
 20
161.164341
 30
0.0
 11
339.939881
 21
80.164341
 31
0.0
  0
ARC
  5
BC
100
AcDbEntity
  8
FC-外形線-1
  6
CONTINUOUS
 62
     4
100
AcDbCircle
 10
230.439881
 20
257.164341
 30
0.0
 40
2.0
100
AcDbArc
 50
180.0
 51
270.0
  0
LINE
  5
BD
100
AcDbEntity
  8
FC-外形線-1
  6
CONTINUOUS
 62
     4
100
AcDbLine
 10
235.439881
 20
255.164341
 30
0.0
 11
230.439881
 21
255.164341
 31
0.0
  0
ARC
  5
BE
100
AcDbEntity
  8
FC-外形線-1
  6
CONTINUOUS
 62
     4
100
AcDbCircle
 10
218.166779
 20
239.414341
 30
0.0
 40
25.273102
100
AcDbArc
 50
-20.256158
 51
20.256158
  0
LINE
  5
BF
100
AcDbEntity
  8
FC-外形線-1
  6
CONTINUOUS
 62
     4
100
AcDbLine
 10
243.439881
 20
248.164341
 30
0.0
 11
235.439881
 21
248.164341
 31
0.0
  0
LINE
  5
C0
100
AcDbEntity
  8
FC-外形線-1
  6
CONTINUOUS
 62
     4
100
AcDbLine
 10
235.439881
 20
230.664341
 30
0.0
 11
241.876844
 21
230.664341
 31
0.0
  0
ARC
  5
C1
100
AcDbEntity
  8
FC-外形線-1
  6
CONTINUOUS
 62
     4
100
AcDbCircle
 10
230.439881
 20
204.164341
 30
0.0
 40
2.0
100
AcDbArc
 50
90.0
 51
180.0
  0
LINE
  5
C2
100
AcDbEntity
  8
FC-外形線-1
  6
CONTINUOUS
 62
     4
100
AcDbLine
 10
235.439881
 20
206.164341
 30
0.0
 11
230.439881
 21
206.164341
 31
0.0
  0
LINE
  5
C3
100
AcDbEntity
  8
FC-外形線-1
  6
CONTINUOUS
 62
     4
100
AcDbLine
 10
243.439881
 20
213.164341
 30
0.0
 11
235.439881
 21
213.164341
 31
0.0
  0
LINE
  5
C4
100
AcDbEntity
  8
FC-外形線-1
  6
CONTINUOUS
 62
     4
100
AcDbLine
 10
243.439881
 20
213.164341
 30
0.0
 11
243.439881
 21
248.164341
 31
0.0
  0
ARC
  5
C5
100
AcDbEntity
  8
FC-外形線-1
  6
CONTINUOUS
 62
     4
100
AcDbCircle
 10
218.166779
 20
221.914341
 30
0.0
 40
25.273102
100
AcDbArc
 50
-20.256158
 51
20.256158
  0
LINE
  5
C6
100
AcDbEntity
  8
FC-外形線-1
  6
CONTINUOUS
 62
     4
100
AcDbLine
 10
235.439881
 20
206.164341
 30
0.0
 11
235.439881
 21
255.164341
 31
0.0
  0
LINE
  5
C7
100
AcDbEntity
  8
FC-外形線-1
  6
CONTINUOUS
 62
     4
100
AcDbLine
 10
228.439881
 20
196.164341
 30
0.0
 11
228.439881
 21
265.164341
 31
0.0
  0
LINE
  5
C8
100
AcDbEntity
  8
FC-外形線-1
  6
CONTINUOUS
 62
     4
100
AcDbLine
 10
168.207831
 20
250.664341
 30
0.0
 11
157.939881
 21
250.664341
 31
0.0
  0
LINE
  5
C9
100
AcDbEntity
  8
FC-外形線-1
  6
CONTINUOUS
 62
     4
100
AcDbLine
 10
139.939881
 20
251.164341
 30
0.0
 11
157.939881
 21
251.164341
 31
0.0
  0
LINE
  5
CA
100
AcDbEntity
  8
FC-外形線-1
  6
CONTINUOUS
 62
     4
100
AcDbLine
 10
176.439881
 20
245.664341
 30
0.0
 11
169.939881
 21
245.664341
 31
0.0
  0
LINE
  5
CB
100
AcDbEntity
  8
FC-外形線-1
  6
CONTINUOUS
 62
     4
100
AcDbLine
 10
169.939881
 20
213.664341
 30
0.0
 11
168.207831
 21
210.664341
 31
0.0
  0
LINE
  5
CC
100
AcDbEntity
  8
FC-外形線-1
  6
CONTINUOUS
 62
     4
100
AcDbLine
 10
168.207831
 20
210.664341
 30
0.0
 11
157.939881
 21
210.664341
 31
0.0
  0
LINE
  5
CD
100
AcDbEntity
  8
FC-外形線-1
  6
CONTINUOUS
 62
     4
100
AcDbLine
 10
176.439881
 20
215.664341
 30
0.0
 11
169.939881
 21
215.664341
 31
0.0
  0
LINE
  5
CE
100
AcDbEntity
  8
FC-外形線-1
  6
CONTINUOUS
 62
     4
100
AcDbLine
 10
169.939881
 20
213.664341
 30
0.0
 11
169.939881
 21
247.664341
 31
0.0
  0
ARC
  5
CF
100
AcDbEntity
  8
FC-外形線-1
  6
CONTINUOUS
 62
     4
100
AcDbCircle
 10
128.334248
 20
220.414341
 30
0.0
 40
29.605634
100
AcDbArc
 50
-20.256158
 51
20.256158
  0
ARC
  5
D0
100
AcDbEntity
  8
FC-外形線-1
  6
CONTINUOUS
 62
     4
100
AcDbCircle
 10
169.545515
 20
220.414341
 30
0.0
 40
29.605634
100
AcDbArc
 50
159.743842
 51
200.256158
  0
LINE
  5
D1
100
AcDbEntity
  8
FC-外形線-1
  6
CONTINUOUS
 62
     4
100
AcDbLine
 10
139.939881
 20
210.164341
 30
0.0
 11
157.939881
 21
210.164341
 31
0.0
  0
LINE
  5
D2
100
AcDbEntity
  8
FC-外形線-1
  6
CONTINUOUS
 62
     4
100
AcDbLine
 10
141.770868
 20
230.664341
 30
0.0
 11
156.108895
 21
230.664341
 31
0.0
  0
LINE
  5
D3
100
AcDbEntity
  8
FC-外形線-1
  6
CONTINUOUS
 62
     4
100
AcDbLine
 10
168.207831
 20
250.664341
 30
0.0
 11
168.207831
 21
210.664341
 31
0.0
  0
LINE
  5
D4
100
AcDbEntity
  8
FC-外形線-1
  6
CONTINUOUS
 62
     4
100
AcDbLine
 10
176.439881
 20
196.164341
 30
0.0
 11
176.439881
 21
265.164341
 31
0.0
  0
LINE
  5
D5
100
AcDbEntity
  8
FC-外形線-1
  6
CONTINUOUS
 62
     4
100
AcDbLine
 10
157.939881
 20
210.164341
 30
0.0
 11
157.939881
 21
251.164341
 31
0.0
  0
LINE
  5
D6
100
AcDbEntity
  8
FC-外形線-1
  6
CONTINUOUS
 62
     4
100
AcDbLine
 10
139.939881
 20
210.164341
 30
0.0
 11
139.939881
 21
251.164341
 31
0.0
  0
LINE
  5
D7
100
AcDbEntity
  8
FC-外形線-1
  6
CONTINUOUS
 62
     4
100
AcDbLine
 10
169.939881
 20
247.664341
 30
0.0
 11
168.207831
 21
250.664341
 31
0.0
  0
ARC
  5
D8
100
AcDbEntity
  8
FC-外形線-1
  6
CONTINUOUS
 62
     4
100
AcDbCircle
 10
169.545515
 20
240.914341
 30
0.0
 40
29.605634
100
AcDbArc
 50
159.743842
 51
200.256158
  0
ARC
  5
D9
100
AcDbEntity
  8
FC-外形線-1
  6
CONTINUOUS
 62
     4
100
AcDbCircle
 10
128.334248
 20
240.914341
 30
0.0
 40
29.605634
100
AcDbArc
 50
-20.256158
 51
20.256158
  0
LINE
  5
DA
100
AcDbEntity
  8
FC-外形線-1
  6
CONTINUOUS
 62
     4
100
AcDbLine
 10
176.439881
 20
196.164341
 30
0.0
 11
228.439881
 21
196.164341
 31
0.0
  0
LINE
  5
DB
100
AcDbEntity
  8
FC-外形線-1
  6
CONTINUOUS
 62
     4
100
AcDbLine
 10
176.439881
 20
265.164341
 30
0.0
 11
228.439881
 21
265.164341
 31
0.0
  0
ARC
  5
DC
100
AcDbEntity
  8
FC-外形線-1
  6
CONTINUOUS
 62
     4
100
AcDbCircle
 10
230.439881
 20
147.164341
 30
0.0
 40
2.0
100
AcDbArc
 50
180.0
 51
270.0
  0
LINE
  5
DD
100
AcDbEntity
  8
FC-外形線-1
  6
CONTINUOUS
 62
     4
100
AcDbLine
 10
235.439881
 20
145.164341
 30
0.0
 11
230.439881
 21
145.164341
 31
0.0
  0
LINE
  5
DE
100
AcDbEntity
  8
FC-外形線-1
  6
CONTINUOUS
 62
     4
100
AcDbLine
 10
241.876844
 20
140.871601
 30
0.0
 11
235.439881
 21
140.871601
 31
0.0
  0
LINE
  5
DF
100
AcDbEntity
  8
FC-外形線-1
  6
CONTINUOUS
 62
     4
100
AcDbLine
 10
245.939881
 20
134.664341
 30
0.0
 11
243.439881
 21
134.664341
 31
0.0
  0
ARC
  5
E0
100
AcDbEntity
  8
FC-外形線-1
  6
CONTINUOUS
 62
     4
100
AcDbCircle
 10
234.494502
 20
135.819786
 30
0.0
 40
8.94538
100
AcDbArc
 50
325.615753
 51
360.0
  0
LINE
  5
E1
100
AcDbEntity
  8
FC-外形線-1
  6
CONTINUOUS
 62
     4
100
AcDbLine
 10
241.876844
 20
130.767971
 30
0.0
 11
235.439881
 21
130.767971
 31
0.0
  0
LINE
  5
E2
100
AcDbEntity
  8
FC-外形線-1
  6
CONTINUOUS
 62
     4
100
AcDbLine
 10
245.939881
 20
106.664341
 30
0.0
 11
243.439881
 21
106.664341
 31
0.0
  0
LINE
  5
E3
100
AcDbEntity
  8
FC-外形線-1
  6
CONTINUOUS
 62
     4
100
AcDbLine
 10
243.439881
 20
103.164341
 30
0.0
 11
241.876844
 21
100.457082
 31
0.0
  0
ARC
  5
E4
100
AcDbEntity
  8
FC-外形線-1
  6
CONTINUOUS
 62
     4
100
AcDbCircle
 10
234.494502
 20
105.508897
 30
0.0
 40
8.94538
100
AcDbArc
 50
0.0
 51
34.384247
  0
ARC
  5
E5
100
AcDbEntity
  8
FC-外形線-1
  6
CONTINUOUS
 62
     4
100
AcDbCircle
 10
230.439881
 20
94.164341
 30
0.0
 40
2.0
100
AcDbArc
 50
90.0
 51
180.0
  0
LINE
  5
E6
100
AcDbEntity
  8
FC-外形線-1
  6
CONTINUOUS
 62
     4
100
AcDbLine
 10
235.439881
 20
96.164341
 30
0.0
 11
230.439881
 21
96.164341
 31
0.0
  0
LINE
  5
E7
100
AcDbEntity
  8
FC-外形線-1
  6
CONTINUOUS
 62
     4
100
AcDbLine
 10
241.876844
 20
110.560712
 30
0.0
 11
235.439881
 21
110.560712
 31
0.0
  0
LINE
  5
E8
100
AcDbEntity
  8
FC-外形線-1
  6
CONTINUOUS
 62
     4
100
AcDbLine
 10
241.876844
 20
100.457082
 30
0.0
 11
235.439881
 21
100.457082
 31
0.0
  0
ARC
  5
E9
100
AcDbEntity
  8
FC-外形線-1
  6
CONTINUOUS
 62
     4
100
AcDbCircle
 10
210.002918
 20
120.664341
 30
0.0
 40
33.436963
100
AcDbArc
 50
-17.587954
 51
17.587954
  0
LINE
  5
EA
100
AcDbEntity
  8
FC-外形線-1
  6
CONTINUOUS
 62
     4
100
AcDbLine
 10
243.439881
 20
103.164341
 30
0.0
 11
243.439881
 21
138.164341
 31
0.0
  0
LINE
  5
EB
100
AcDbEntity
  8
FC-外形線-1
  6
CONTINUOUS
 62
     4
100
AcDbLine
 10
245.939881
 20
135.664341
 30
0.0
 11
245.939881
 21
105.664341
 31
0.0
  0
LINE
  5
EC
100
AcDbEntity
  8
FC-外形線-1
  6
CONTINUOUS
 62
     4
100
AcDbLine
 10
243.439881
 20
138.164341
 30
0.0
 11
241.876844
 21
140.871601
 31
0.0
  0
LINE
  5
ED
100
AcDbEntity
  8
FC-外形線-1
  6
CONTINUOUS
 62
     4
100
AcDbLine
 10
228.439881
 20
86.164341
 30
0.0
 11
228.439881
 21
155.164341
 31
0.0
  0
LINE
  5
EE
100
AcDbEntity
  8
FC-外形線-1
  6
CONTINUOUS
 62
     4
100
AcDbLine
 10
235.439881
 20
96.164341
 30
0.0
 11
235.439881
 21
145.164341
 31
0.0
  0
LINE
  5
EF
100
AcDbEntity
  8
FC-外形線-1
  6
CONTINUOUS
 62
     4
100
AcDbLine
 10
157.939881
 20
141.164341
 30
0.0
 11
156.108895
 21
144.335702
 31
0.0
  0
LINE
  5
F0
100
AcDbEntity
  8
FC-外形線-1
  6
CONTINUOUS
 62
     4
100
AcDbLine
 10
168.207831
 20
140.664341
 30
0.0
 11
157.939881
 21
140.664341
 31
0.0
  0
LINE
  5
F1
100
AcDbEntity
  8
FC-外形線-1
  6
CONTINUOUS
 62
     4
100
AcDbLine
 10
139.939881
 20
141.164341
 30
0.0
 11
141.770868
 21
144.335702
 31
0.0
  0
LINE
  5
F2
100
AcDbEntity
  8
FC-外形線-1
  6
CONTINUOUS
 62
     4
100
AcDbLine
 10
141.770868
 20
144.335702
 30
0.0
 11
156.108895
 21
144.335702
 31
0.0
  0
ARC
  5
F3
100
AcDbEntity
  8
FC-外形線-1
  6
CONTINUOUS
 62
     4
100
AcDbCircle
 10
147.461008
 20
138.417862
 30
0.0
 40
10.478873
100
AcDbArc
 50
325.615753
 51
360.0
  0
LINE
  5
F4
100
AcDbEntity
  8
FC-外形線-1
  6
CONTINUOUS
 62
     4
100
AcDbLine
 10
176.439881
 20
135.664341
 30
0.0
 11
169.939881
 21
135.664341
 31
0.0
  0
LINE
  5
F5
100
AcDbEntity
  8
FC-外形線-1
  6
CONTINUOUS
 62
     4
100
AcDbLine
 10
169.939881
 20
103.664341
 30
0.0
 11
168.207831
 21
100.664341
 31
0.0
  0
ARC
  5
F6
100
AcDbEntity
  8
FC-外形線-1
  6
CONTINUOUS
 62
     4
100
AcDbCircle
 10
147.461008
 20
102.910821
 30
0.0
 40
10.478873
100
AcDbArc
 50
0.0
 51
34.384247
  0
LINE
  5
F7
100
AcDbEntity
  8
FC-外形線-1
  6
CONTINUOUS
 62
     4
100
AcDbLine
 10
168.207831
 20
100.664341
 30
0.0
 11
157.939881
 21
100.664341
 31
0.0
  0
LINE
  5
F8
100
AcDbEntity
  8
FC-外形線-1
  6
CONTINUOUS
 62
     4
100
AcDbLine
 10
157.939881
 20
100.164341
 30
0.0
 11
156.108895
 21
96.99298
 31
0.0
  0
LINE
  5
F9
100
AcDbEntity
  8
FC-外形線-1
  6
CONTINUOUS
 62
     4
100
AcDbLine
 10
176.439881
 20
105.664341
 30
0.0
 11
169.939881
 21
105.664341
 31
0.0
  0
ARC
  5
FA
100
AcDbEntity
  8
FC-外形線-1
  6
CONTINUOUS
 62
     4
100
AcDbCircle
 10
118.770868
 20
120.664341
 30
0.0
 40
39.169014
100
AcDbArc
 50
-17.587954
 51
17.587954
  0
LINE
  5
FB
100
AcDbEntity
  8
FC-外形線-1
  6
CONTINUOUS
 62
     4
100
AcDbLine
 10
169.939881
 20
103.664341
 30
0.0
 11
169.939881
 21
137.664341
 31
0.0
  0
ARC
  5
FC
100
AcDbEntity
  8
FC-外形線-1
  6
CONTINUOUS
 62
     4
100
AcDbCircle
 10
150.418755
 20
138.417862
 30
0.0
 40
10.478873
100
AcDbArc
 50
180.0
 51
214.384247
  0
ARC
  5
FD
100
AcDbEntity
  8
FC-外形線-1
  6
CONTINUOUS
 62
     4
100
AcDbCircle
 10
150.418755
 20
102.910821
 30
0.0
 40
10.478873
100
AcDbArc
 50
145.615753
 51
180.0
  0
LINE
  5
FE
100
AcDbEntity
  8
FC-外形線-1
  6
CONTINUOUS
 62
     4
100
AcDbLine
 10
139.939881
 20
100.164341
 30
0.0
 11
141.770868
 21
96.99298
 31
0.0
  0
ARC
  5
FF
100
AcDbEntity
  8
FC-外形線-1
  6
CONTINUOUS
 62
     4
100
AcDbCircle
 10
179.108895
 20
120.664341
 30
0.0
 40
39.169014
100
AcDbArc
 50
162.412046
 51
197.587954
  0
LINE
  5
100
100
AcDbEntity
  8
FC-外形線-1
  6
CONTINUOUS
 62
     4
100
AcDbLine
 10
141.770868
 20
132.500022
 30
0.0
 11
156.108895
 21
132.500022
 31
0.0
  0
LINE
  5
101
100
AcDbEntity
  8
FC-外形線-1
  6
CONTINUOUS
 62
     4
100
AcDbLine
 10
141.770868
 20
108.828661
 30
0.0
 11
156.108895
 21
108.828661
 31
0.0
  0
LINE
  5
102
100
AcDbEntity
  8
FC-外形線-1
  6
CONTINUOUS
 62
     4
100
AcDbLine
 10
141.770868
 20
96.99298
 30
0.0
 11
156.108895
 21
96.99298
 31
0.0
  0
LINE
  5
103
100
AcDbEntity
  8
FC-外形線-1
  6
CONTINUOUS
 62
     4
100
AcDbLine
 10
169.939881
 20
137.664341
 30
0.0
 11
168.207831
 21
140.664341
 31
0.0
  0
LINE
  5
104
100
AcDbEntity
  8
FC-外形線-1
  6
CONTINUOUS
 62
     4
100
AcDbLine
 10
139.939881
 20
100.164341
 30
0.0
 11
139.939881
 21
141.164341
 31
0.0
  0
LINE
  5
105
100
AcDbEntity
  8
FC-外形線-1
  6
CONTINUOUS
 62
     4
100
AcDbLine
 10
157.939881
 20
100.164341
 30
0.0
 11
157.939881
 21
141.164341
 31
0.0
  0
LINE
  5
106
100
AcDbEntity
  8
FC-外形線-1
  6
CONTINUOUS
 62
     4
100
AcDbLine
 10
176.439881
 20
86.164341
 30
0.0
 11
176.439881
 21
155.164341
 31
0.0
  0
LINE
  5
107
100
AcDbEntity
  8
FC-外形線-1
  6
CONTINUOUS
 62
     4
100
AcDbLine
 10
168.207831
 20
140.664341
 30
0.0
 11
168.207831
 21
100.664341
 31
0.0
  0
LINE
  5
108
100
AcDbEntity
  8
FC-外形線-1
  6
CONTINUOUS
 62
     4
100
AcDbLine
 10
176.439881
 20
155.164341
 30
0.0
 11
228.439881
 21
155.164341
 31
0.0
  0
LINE
  5
109
100
AcDbEntity
  8
FC-外形線-1
  6
CONTINUOUS
 62
     4
100
AcDbLine
 10
176.439881
 20
86.164341
 30
0.0
 11
228.439881
 21
86.164341
 31
0.0
  0
INSERT
  5
10A
100
AcDbEntity
  8
0
100
AcDbBlockReference
  2
BLKF0019
 10
0.0
 20
0.0
 30
0.0
 44
1.0
 45
1.0
  0
CIRCLE
  5
10B
100
AcDbEntity
  8
FC-外形線-1
  6
CONTINUOUS
 62
     4
100
AcDbCircle
 10
79.939881
 20
120.664341
 30
0.0
 40
20.5
  0
CIRCLE
  5
10C
100
AcDbEntity
  8
FC-外形線-1
  6
CONTINUOUS
 62
     3
100
AcDbCircle
 10
79.939881
 20
120.664341
 30
0.0
 40
28.0
  0
CIRCLE
  5
10D
100
AcDbEntity
  8
FC-外形線-1
  6
CONTINUOUS
 62
     4
100
AcDbCircle
 10
79.939881
 20
120.664341
 30
0.0
 40
34.5
  0
LINE
  5
10E
100
AcDbEntity
  8
FC-中心線-1
  6
CENTER
 62
     3
100
AcDbLine
 10
79.939881
 20
161.164341
 30
0.0
 11
79.939881
 21
80.164341
 31
0.0
  0
LINE
  5
10F
100
AcDbEntity
  8
FC-中心線-1
  6
CENTER
 62
     3
100
AcDbLine
 10
39.439881
 20
120.664341
 30
0.0
 11
120.439881
 21
120.664341
 31
0.0
  0
LINE
  5
110
100
AcDbEntity
  8
FC-中心線-1
  6
CENTER
 62
     3
100
AcDbLine
 10
132.939881
 20
120.664341
 30
0.0
 11
291.325988
 21
120.664341
 31
0.0
  0
LINE
  5
111
100
AcDbEntity
  8
FC-外形線-1
  6
CONTINUOUS
 62
     4
100
AcDbLine
 10
284.439881
 20
135.664341
 30
0.0
 11
245.939881
 21
135.664341
 31
0.0
  0
LINE
  5
112
100
AcDbEntity
  8
FC-外形線-1
  6
CONTINUOUS
 62
     3
100
AcDbLine
 10
285.439881
 20
134.664341
 30
0.0
 11
245.939881
 21
134.664341
 31
0.0
  0
LINE
  5
113
100
AcDbEntity
  8
FC-外形線-1
  6
CONTINUOUS
 62
     3
100
AcDbLine
 10
285.439881
 20
106.664341
 30
0.0
 11
245.939881
 21
106.664341
 31
0.0
  0
LINE
  5
114
100
AcDbEntity
  8
FC-外形線-1
  6
CONTINUOUS
 62
     4
100
AcDbLine
 10
284.439881
 20
105.664341
 30
0.0
 11
245.939881
 21
105.664341
 31
0.0
  0
LINE
  5
115
100
AcDbEntity
  8
FC-中心線-1
  6
CENTER
 62
     3
100
AcDbLine
 10
132.939881
 20
230.664341
 30
0.0
 11
291.325988
 21
230.664341
 31
0.0
  0
TEXT
  5
116
100
AcDbEntity
  8
FC-文字-1
  6
CONTINUOUS
 62
     6
100
AcDbText
 10
91.415886
 20
283.830811
 30
0.0
 40
10.0
  1
FK-30の外形図です。
 41
1.069524
 51
14.99
  7
FX_VECTOR
 72
     5
 11
219.758743
 21
283.830811
 31
0.0
100
AcDbText
  0
TEXT
  5
117
100
AcDbEntity
  8
LAYERGROUP-1
  6
細い実線
 62
     4
100
AcDbText
 10
100.457146
 20
35.871429
 30
0.0
 40
11.957142
  1
HORIUCHI MACHINERY Co., Ltd.
 41
0.645161
  7
FX_VECTOR
 72
     5
 11
316.45715
 21
35.871429
 31
0.0
100
AcDbText
  0
ENDSEC
  0
SECTION
  2
OBJECTS
  0
DICTIONARY
  5
19
100
AcDbDictionary
  3
ACAD_GROUP
350
1A
  3
ACAD_MLINESTYLE
350
1B
  0
DICTIONARY
  5
1A
102
{ACAD_REACTORS
330
19
102
}
100
AcDbDictionary
  0
DICTIONARY
  5
1B
102
{ACAD_REACTORS
330
19
102
}
100
AcDbDictionary
  3
STANDARD
350
1C
  0
MLINESTYLE
  5
1C
102
{ACAD_REACTORS
330
1B
102
}
100
AcDbMlineStyle
  2
STANDARD
 70
     0
  3

 62
     0
 51
90.0
 52
90.0
 71
     2
 49
0.5
 62
   256
  6
BYLAYER
 49
-0.5
 62
   256
  6
BYLAYER
  0
ENDSEC
  0
EOF
